  0
SECTION
  2
HEADER
  9
$ACADVER
  1
AC1014
  9
$ACADMAINTVER
 70
     6
  9
$DWGCODEPAGE
  3
ANSI_1252
  9
$INSBASE
 10
0.0
 20
0.0
 30
0.0
  9
$EXTMIN
 10
-0.5960879659165569
 20
-0.4627884615384634
 30
-0.00000001
  9
$EXTMAX
 10
6.121219726391142
 20
4.002019230769228
 30
0.00000001
  9
$LIMMIN
 10
-2.0
 20
-2.0
  9
$LIMMAX
 10
9.0
 20
6.5
  9
$ORTHOMODE
 70
     0
  9
$REGENMODE
 70
     1
  9
$FILLMODE
 70
     1
  9
$QTEXTMODE
 70
     0
  9
$MIRRTEXT
 70
     1
  9
$DRAGMODE
 70
     2
  9
$LTSCALE
 40
1.0
  9
$OSMODE
 70
     0
  9
$ATTMODE
 70
     1
  9
$TEXTSIZE
 40
0.125
  9
$TRACEWID
 40
0.05
  9
$TEXTSTYLE
  7
STANDARD
  9
$CLAYER
  8
0
  9
$CELTYPE
  6
BYLAYER
  9
$CECOLOR
 62
     7
  9
$CELTSCALE
 40
1.0
  9
$DELOBJ
 70
     1
  9
$DISPSILH
 70
     0
  9
$DIMSCALE
 40
1.0
  9
$DIMASZ
 40
0.18
  9
$DIMEXO
 40
0.0625
  9
$DIMDLI
 40
0.38
  9
$DIMRND
 40
0.0
  9
$DIMDLE
 40
0.0
  9
$DIMEXE
 40
0.18
  9
$DIMTP
 40
0.0
  9
$DIMTM
 40
0.0
  9
$DIMTXT
 40
0.125
  9
$DIMCEN
 40
0.09
  9
$DIMTSZ
 40
0.0
  9
$DIMTOL
 70
     0
  9
$DIMLIM
 70
     0
  9
$DIMTIH
 70
     1
  9
$DIMTOH
 70
     1
  9
$DIMSE1
 70
     0
  9
$DIMSE2
 70
     0
  9
$DIMTAD
 70
     0
  9
$DIMZIN
 70
     0
  9
$DIMBLK
  1

  9
$DIMASO
 70
     1
  9
$DIMSHO
 70
     1
  9
$DIMPOST
  1

  9
$DIMAPOST
  1

  9
$DIMALT
 70
     0
  9
$DIMALTD
 70
     2
  9
$DIMALTF
 40
25.4
  9
$DIMLFAC
 40
1.0
  9
$DIMTOFL
 70
     0
  9
$DIMTVP
 40
0.0
  9
$DIMTIX
 70
     0
  9
$DIMSOXD
 70
     0
  9
$DIMSAH
 70
     0
  9
$DIMBLK1
  1

  9
$DIMBLK2
  1

  9
$DIMSTYLE
  2
STANDARD
  9
$DIMCLRD
 70
     0
  9
$DIMCLRE
 70
     0
  9
$DIMCLRT
 70
     0
  9
$DIMTFAC
 40
1.0
  9
$DIMGAP
 40
0.09
  9
$DIMJUST
 70
     0
  9
$DIMSD1
 70
     0
  9
$DIMSD2
 70
     0
  9
$DIMTOLJ
 70
     1
  9
$DIMTZIN
 70
     0
  9
$DIMALTZ
 70
     0
  9
$DIMALTTZ
 70
     0
  9
$DIMFIT
 70
     3
  9
$DIMUPT
 70
     0
  9
$DIMUNIT
 70
     4
  9
$DIMDEC
 70
     4
  9
$DIMTDEC
 70
     4
  9
$DIMALTU
 70
     2
  9
$DIMALTTD
 70
     2
  9
$DIMTXSTY
  7
STANDARD
  9
$DIMAUNIT
 70
     1
  9
$LUNITS
 70
     2
  9
$LUPREC
 70
     4
  9
$SKETCHINC
 40
0.1
  9
$FILLETRAD
 40
0.5
  9
$AUNITS
 70
     0
  9
$AUPREC
 70
     0
  9
$MENU
  1
.
  9
$ELEVATION
 40
0.0
  9
$PELEVATION
 40
0.0
  9
$THICKNESS
 40
0.0
  9
$LIMCHECK
 70
     0
  9
$BLIPMODE
 70
     0
  9
$CHAMFERA
 40
0.5
  9
$CHAMFERB
 40
0.5
  9
$CHAMFERC
 40
0.0
  9
$CHAMFERD
 40
0.0
  9
$SKPOLY
 70
     0
  9
$TDCREATE
 40
2453834.769659410
  9
$TDUPDATE
 40
2312280.042096863
  9
$TDINDWG
 40
0.0000010880
  9
$TDUSRTIMER
 40
0.0000010880
  9
$USRTIMER
 70
     1
  9
$ANGBASE
 50
0.0
  9
$ANGDIR
 70
     0
  9
$PDMODE
 70
     0
  9
$PDSIZE
 40
0.0
  9
$PLINEWID
 40
0.0
  9
$COORDS
 70
     0
  9
$SPLFRAME
 70
     0
  9
$SPLINETYPE
 70
     6
  9
$SPLINESEGS
 70
     8
  9
$ATTDIA
 70
     0
  9
$ATTREQ
 70
     1
  9
$HANDLING
 70
 12289
  9
$HANDSEED
  5
10D
  9
$SURFTAB1
 70
     6
  9
$SURFTAB2
 70
     6
  9
$SURFTYPE
 70
     6
  9
$SURFU
 70
     6
  9
$SURFV
 70
     6
  9
$UCSNAME
  2

  9
$UCSORG
 10
0.0
 20
0.0
 30
0.0
  9
$UCSXDIR
 10
1.0
 20
0.0
 30
0.0
  9
$UCSYDIR
 10
0.0
 20
1.0
 30
0.0
  9
$PUCSNAME
  2

  9
$PUCSORG
 10
0.0
 20
0.0
 30
0.0
  9
$PUCSXDIR
 10
1.0
 20
0.0
 30
0.0
  9
$PUCSYDIR
 10
0.0
 20
1.0
 30
0.0
  9
$USERI1
 70
     0
  9
$USERI2
 70
     0
  9
$USERI3
 70
     0
  9
$USERI4
 70
     0
  9
$USERI5
 70
     0
  9
$USERR1
 40
0.0
  9
$USERR2
 40
0.0
  9
$USERR3
 40
0.0
  9
$USERR4
 40
0.0
  9
$USERR5
 40
0.0
  9
$WORLDVIEW
 70
     1
  9
$SHADEDGE
 70
     3
  9
$SHADEDIF
 70
    70
  9
$TILEMODE
 70
     1
  9
$MAXACTVP
 70
    64
  9
$PINSBASE
 10
0.0
 20
0.0
 30
0.0
  9
$PLIMCHECK
 70
     0
  9
$PEXTMIN
 10
1.000000000000000E+20
 20
1.000000000000000E+20
 30
1.000000000000000E+20
  9
$PEXTMAX
 10
-1.000000000000000E+20
 20
-1.000000000000000E+20
 30
-1.000000000000000E+20
  9
$PLIMMIN
 10
0.0
 20
0.0
  9
$PLIMMAX
 10
12.0
 20
9.0
  9
$UNITMODE
 70
     0
  9
$VISRETAIN
 70
     1
  9
$PLINEGEN
 70
     0
  9
$PSLTSCALE
 70
     1
  9
$TREEDEPTH
 70
  3020
  9
$PICKSTYLE
 70
     1
  9
$CMLSTYLE
  2
STANDARD
  9
$CMLJUST
 70
     0
  9
$CMLSCALE
 40
1.0
  9
$PROXYGRAPHICS
 70
     1
  9
$MEASUREMENT
 70
     0
  0
ENDSEC
  0
SECTION
  2
CLASSES
  0
CLASS
  1
ACDBDICTIONARYWDFLT
  2
AcDbDictionaryWithDefault
  3
AutoCAD 2000
 90
        0
280
     0
281
     0
  0
CLASS
  1
ACDBPLACEHOLDER
  2
AcDbPlaceHolder
  3
AutoCAD 2000
 90
        0
280
     0
281
     0
  0
CLASS
  1
LAYOUT
  2
AcDbLayout
  3
AutoCAD 2000
 90
        0
280
     0
281
     0
  0
CLASS
  1
LONG_TRANSACTION
  2
AcDbLongTransaction
  3
AutoCAD 2000
 90
        0
280
     0
281
     0
  0
CLASS
  1
LWPOLYLINE
  2
AcDbPolyline
  3
AutoCAD 2000
 90
        0
280
     0
281
     1
  0
CLASS
  1
HATCH
  2
AcDbHatch
  3
AutoCAD 2000
 90
        0
280
     0
281
     1
  0
CLASS
  1
XRECORD
  2
AcDbXrecord
  3
AutoCAD 2000
 90
        0
280
     0
281
     0
  0
ENDSEC
  0
SECTION
  2
TABLES
  0
TABLE
  2
VPORT
  5
8
330
0
100
AcDbSymbolTable
 70
     1
  0
VPORT
  5
13
330
8
100
AcDbSymbolTableRecord
100
AcDbViewportTableRecord
  2
*ACTIVE
 70
     0
 10
0.0
 20
0.0
 11
1.0
 21
1.0
 12
2.5
 22
1.25
 13
0.0
 23
0.0
 14
1.0
 24
1.0
 15
0.0
 25
0.0
 16
0.0
 26
0.0
 36
1.0
 17
0.0
 27
0.0
 37
0.0
 40
6.5
 41
1.384615384615384
 42
50.0
 43
0.0
 44
0.0
 50
0.0
 51
0.0
 71
     0
 72
   100
 73
     1
 74
     1
 75
     0
 76
     0
 77
     0
 78
     0
  0
ENDTAB
  0
TABLE
  2
LTYPE
  5
5
330
0
100
AcDbSymbolTable
 70
    40
  0
LTYPE
  5
14
330
5
100
AcDbSymbolTableRecord
100
AcDbLinetypeTableRecord
  2
BYBLOCK
 70
     0
  3

 72
    65
 73
     0
 40
0.0
  0
LTYPE
  5
15
330
5
100
AcDbSymbolTableRecord
100
AcDbLinetypeTableRecord
  2
BYLAYER
 70
     0
  3

 72
    65
 73
     0
 40
0.0
  0
LTYPE
  5
16
330
5
100
AcDbSymbolTableRecord
100
AcDbLinetypeTableRecord
  2
CONTINUOUS
 70
     0
  3
Solid line
 72
    65
 73
     0
 40
0.0
  0
LTYPE
  5
28
330
5
100
AcDbSymbolTableRecord
100
AcDbLinetypeTableRecord
  2
HIDDEN
 70
     0
  3
_ _ _ _ _ _ _ _ _ _ _ _ _ _ 
 72
    65
 73
     2
 40
0.375
 49
0.25
 74
     0
 49
-0.125
 74
     0
  0
LTYPE
  5
29
330
5
100
AcDbSymbolTableRecord
100
AcDbLinetypeTableRecord
  2
DASHED
 70
     0
  3
__ __ __ __ __ __ __ __ __ 
 72
    65
 73
     2
 40
0.75
 49
0.5
 74
     0
 49
-0.25
 74
     0
  0
LTYPE
  5
2A
330
5
100
AcDbSymbolTableRecord
100
AcDbLinetypeTableRecord
  2
CENTER
 70
     0
  3
____ _ ____ _ ____ _ ____ _ 
 72
    65
 73
     4
 40
2.0
 49
1.25
 74
     0
 49
-0.25
 74
     0
 49
0.25
 74
     0
 49
-0.25
 74
     0
  0
LTYPE
  5
2B
330
5
100
AcDbSymbolTableRecord
100
AcDbLinetypeTableRecord
  2
PHANTOM
 70
     0
  3
_____ _ _ _____ _ _ _____ _ _ 
 72
    65
 73
     6
 40
2.5
 49
1.25
 74
     0
 49
-0.25
 74
     0
 49
0.25
 74
     0
 49
-0.25
 74
     0
 49
0.25
 74
     0
 49
-0.25
 74
     0
  0
LTYPE
  5
2C
330
5
100
AcDbSymbolTableRecord
100
AcDbLinetypeTableRecord
  2
DOT
 70
     0
  3
...........................
 72
    65
 73
     2
 40
0.25
 49
0.0
 74
     0
 49
-0.25
 74
     0
  0
LTYPE
  5
2D
330
5
100
AcDbSymbolTableRecord
100
AcDbLinetypeTableRecord
  2
DASHDOT
 70
     0
  3
__ . __ . __ . __ . __ . __ . 
 72
    65
 73
     4
 40
1.0
 49
0.5
 74
     0
 49
-0.25
 74
     0
 49
0.0
 74
     0
 49
-0.25
 74
     0
  0
LTYPE
  5
2E
330
5
100
AcDbSymbolTableRecord
100
AcDbLinetypeTableRecord
  2
DIVIDE
 70
     0
  3
__ . . __ . . __ . . __ . . 
 72
    65
 73
     6
 40
1.25
 49
0.5
 74
     0
 49
-0.25
 74
     0
 49
0.0
 74
     0
 49
-0.25
 74
     0
 49
0.0
 74
     0
 49
-0.25
 74
     0
  0
LTYPE
  5
2F
330
5
100
AcDbSymbolTableRecord
100
AcDbLinetypeTableRecord
  2
BORDER
 70
     0
  3
__ __ . __ __ . __ __ . __ __ .
 72
    65
 73
     6
 40
1.75
 49
0.5
 74
     0
 49
-0.25
 74
     0
 49
0.5
 74
     0
 49
-0.25
 74
     0
 49
0.0
 74
     0
 49
-0.25
 74
     0
  0
LTYPE
  5
30
330
5
100
AcDbSymbolTableRecord
100
AcDbLinetypeTableRecord
  2
BORDER2
 70
     0
  3
Border (.5x) __.__.__.__.__.__.
 72
    65
 73
     6
 40
0.875
 49
0.25
 74
     0
 49
-0.125
 74
     0
 49
0.25
 74
     0
 49
-0.125
 74
     0
 49
0.0
 74
     0
 49
-0.125
 74
     0
  0
LTYPE
  5
31
330
5
100
AcDbSymbolTableRecord
100
AcDbLinetypeTableRecord
  2
BORDERX2
 70
     0
  3
Border (2x) ____  ____  .  ____
 72
    65
 73
     6
 40
3.5
 49
1.0
 74
     0
 49
-0.5
 74
     0
 49
1.0
 74
     0
 49
-0.5
 74
     0
 49
0.0
 74
     0
 49
-0.5
 74
     0
  0
LTYPE
  5
32
330
5
100
AcDbSymbolTableRecord
100
AcDbLinetypeTableRecord
  2
CENTER2
 70
     0
  3
Center (.5x) ___ _ ___ _ ___ _ 
 72
    65
 73
     4
 40
1.125
 49
0.7500000000000001
 74
     0
 49
-0.125
 74
     0
 49
0.125
 74
     0
 49
-0.125
 74
     0
  0
LTYPE
  5
33
330
5
100
AcDbSymbolTableRecord
100
AcDbLinetypeTableRecord
  2
CENTERX2
 70
     0
  3
Center (2x) ________  __  _____
 72
    65
 73
     4
 40
4.0
 49
2.5
 74
     0
 49
-0.5
 74
     0
 49
0.5
 74
     0
 49
-0.5
 74
     0
  0
LTYPE
  5
34
330
5
100
AcDbSymbolTableRecord
100
AcDbLinetypeTableRecord
  2
DASHDOT2
 70
     0
  3
Dash dot (.5x) _._._._._._._._.
 72
    65
 73
     4
 40
0.5
 49
0.25
 74
     0
 49
-0.125
 74
     0
 49
0.0
 74
     0
 49
-0.125
 74
     0
  0
LTYPE
  5
35
330
5
100
AcDbSymbolTableRecord
100
AcDbLinetypeTableRecord
  2
DASHDOTX2
 70
     0
  3
Dash dot (2x) ____  .  ____  . 
 72
    65
 73
     4
 40
2.0
 49
1.0
 74
     0
 49
-0.5
 74
     0
 49
0.0
 74
     0
 49
-0.5
 74
     0
  0
LTYPE
  5
36
330
5
100
AcDbSymbolTableRecord
100
AcDbLinetypeTableRecord
  2
DASHED2
 70
     0
  3
Dashed (.5x) _ _ _ _ _ _ _ _ _ 
 72
    65
 73
     2
 40
0.375
 49
0.25
 74
     0
 49
-0.125
 74
     0
  0
LTYPE
  5
37
330
5
100
AcDbSymbolTableRecord
100
AcDbLinetypeTableRecord
  2
DASHEDX2
 70
     0
  3
Dashed (2x) ____  ____  ____  _
 72
    65
 73
     2
 40
1.5
 49
1.0
 74
     0
 49
-0.5
 74
     0
  0
LTYPE
  5
38
330
5
100
AcDbSymbolTableRecord
100
AcDbLinetypeTableRecord
  2
DIVIDE2
 70
     0
  3
Divide (.5x) __..__..__..__..__
 72
    65
 73
     6
 40
0.625
 49
0.25
 74
     0
 49
-0.125
 74
     0
 49
0.0
 74
     0
 49
-0.125
 74
     0
 49
0.0
 74
     0
 49
-0.125
 74
     0
  0
LTYPE
  5
39
330
5
100
AcDbSymbolTableRecord
100
AcDbLinetypeTableRecord
  2
DIVIDEX2
 70
     0
  3
Divide (2x) ________  .  .  ___
 72
    65
 73
     6
 40
2.5
 49
1.0
 74
     0
 49
-0.5
 74
     0
 49
0.0
 74
     0
 49
-0.5
 74
     0
 49
0.0
 74
     0
 49
-0.5
 74
     0
  0
LTYPE
  5
3A
330
5
100
AcDbSymbolTableRecord
100
AcDbLinetypeTableRecord
  2
DOT2
 70
     0
  3
Dot (.5x) .....................
 72
    65
 73
     2
 40
0.125
 49
0.0
 74
     0
 49
-0.125
 74
     0
  0
LTYPE
  5
3B
330
5
100
AcDbSymbolTableRecord
100
AcDbLinetypeTableRecord
  2
DOTX2
 70
     0
  3
Dot (2x) .  .  .  .  .  .  .  .
 72
    65
 73
     2
 40
0.5
 49
0.0
 74
     0
 49
-0.5
 74
     0
  0
LTYPE
  5
3C
330
5
100
AcDbSymbolTableRecord
100
AcDbLinetypeTableRecord
  2
HIDDEN2
 70
     0
  3
Hidden (.5x) _ _ _ _ _ _ _ _ _ 
 72
    65
 73
     2
 40
0.1875
 49
0.125
 74
     0
 49
-0.0625
 74
     0
  0
LTYPE
  5
3D
330
5
100
AcDbSymbolTableRecord
100
AcDbLinetypeTableRecord
  2
HIDDENX2
 70
     0
  3
Hidden (2x) ____ ____ ____ ____
 72
    65
 73
     2
 40
0.75
 49
0.5
 74
     0
 49
-0.25
 74
     0
  0
LTYPE
  5
3E
330
5
100
AcDbSymbolTableRecord
100
AcDbLinetypeTableRecord
  2
PHANTOM2
 70
     0
  3
Phantom (.5x) ___ _ _ ___ _ _ _
 72
    65
 73
     6
 40
1.25
 49
0.6250000000000001
 74
     0
 49
-0.125
 74
     0
 49
0.125
 74
     0
 49
-0.125
 74
     0
 49
0.125
 74
     0
 49
-0.125
 74
     0
  0
LTYPE
  5
3F
330
5
100
AcDbSymbolTableRecord
100
AcDbLinetypeTableRecord
  2
PHANTOMX2
 70
     0
  3
Phantom (2x) ____________    __
 72
    65
 73
     6
 40
5.0
 49
2.5
 74
     0
 49
-0.5
 74
     0
 49
0.5
 74
     0
 49
-0.5
 74
     0
 49
0.5
 74
     0
 49
-0.5
 74
     0
  0
LTYPE
  5
40
330
5
100
AcDbSymbolTableRecord
100
AcDbLinetypeTableRecord
  2
DOTS
 70
     0
  3
Dots - - - - - - - - - - - - - 
 72
    65
 73
     2
 40
0.1
 49
0.05
 74
     0
 49
-0.05
 74
     0
  0
LTYPE
  5
41
330
5
100
AcDbSymbolTableRecord
100
AcDbLinetypeTableRecord
  2
ACAD_ISO02W100
 70
     0
  3
__ __ __ __ __ __ __ __ __ __ _
 72
    65
 73
     2
 40
15.0
 49
12.0
 74
     0
 49
-3.0
 74
     0
  0
LTYPE
  5
42
330
5
100
AcDbSymbolTableRecord
100
AcDbLinetypeTableRecord
  2
ACAD_ISO03W100
 70
     0
  3
__    __    __    __    __    _
 72
    65
 73
     2
 40
30.0
 49
12.0
 74
     0
 49
-18.0
 74
     0
  0
LTYPE
  5
43
330
5
100
AcDbSymbolTableRecord
100
AcDbLinetypeTableRecord
  2
ACAD_ISO04W100
 70
     0
  3
____ . ____ . ____ . ____ . ___
 72
    65
 73
     4
 40
30.5
 49
24.0
 74
     0
 49
-3.0
 74
     0
 49
0.5
 74
     0
 49
-3.0
 74
     0
  0
LTYPE
  5
44
330
5
100
AcDbSymbolTableRecord
100
AcDbLinetypeTableRecord
  2
ACAD_ISO05W100
 70
     0
  3
____ .. ____ .. ____ .. ____ ..
 72
    65
 73
     6
 40
34.0
 49
24.0
 74
     0
 49
-3.0
 74
     0
 49
0.5
 74
     0
 49
-3.0
 74
     0
 49
0.5
 74
     0
 49
-3.0
 74
     0
  0
LTYPE
  5
45
330
5
100
AcDbSymbolTableRecord
100
AcDbLinetypeTableRecord
  2
ACAD_ISO06W100
 70
     0
  3
____ ... ____ ... ____ ... ____
 72
    65
 73
     6
 40
34.0
 49
24.0
 74
     0
 49
-3.0
 74
     0
 49
0.5
 74
     0
 49
-3.0
 74
     0
 49
0.5
 74
     0
 49
-3.0
 74
     0
  0
LTYPE
  5
46
330
5
100
AcDbSymbolTableRecord
100
AcDbLinetypeTableRecord
  2
ACAD_ISO07W100
 70
     0
  3
. . . . . . . . . . . . . . . .
 72
    65
 73
     2
 40
3.5
 49
0.5
 74
     0
 49
-3.0
 74
     0
  0
LTYPE
  5
47
330
5
100
AcDbSymbolTableRecord
100
AcDbLinetypeTableRecord
  2
ACAD_ISO08W100
 70
     0
  3
____ __ ____ __ ____ __ ____ __
 72
    65
 73
     4
 40
36.0
 49
24.0
 74
     0
 49
-3.0
 74
     0
 49
6.0
 74
     0
 49
-3.0
 74
     0
  0
LTYPE
  5
48
330
5
100
AcDbSymbolTableRecord
100
AcDbLinetypeTableRecord
  2
ACAD_ISO09W100
 70
     0
  3
____ __ __ ____ __ __ ____ __ _
 72
    65
 73
     6
 40
45.0
 49
24.0
 74
     0
 49
-3.0
 74
     0
 49
6.0
 74
     0
 49
-3.0
 74
     0
 49
6.0
 74
     0
 49
-3.0
 74
     0
  0
LTYPE
  5
49
330
5
100
AcDbSymbolTableRecord
100
AcDbLinetypeTableRecord
  2
ACAD_ISO10W100
 70
     0
  3
__ . __ . __ . __ . __ . __ . _
 72
    65
 73
     4
 40
18.5
 49
12.0
 74
     0
 49
-3.0
 74
     0
 49
0.5
 74
     0
 49
-3.0
 74
     0
  0
LTYPE
  5
4A
330
5
100
AcDbSymbolTableRecord
100
AcDbLinetypeTableRecord
  2
ACAD_ISO11W100
 70
     0
  3
__ __ . __ __ . __ __ . __ __ .
 72
    65
 73
     6
 40
33.5
 49
12.0
 74
     0
 49
-3.0
 74
     0
 49
12.0
 74
     0
 49
-3.0
 74
     0
 49
0.5
 74
     0
 49
-3.0
 74
     0
  0
LTYPE
  5
4B
330
5
100
AcDbSymbolTableRecord
100
AcDbLinetypeTableRecord
  2
ACAD_ISO12W100
 70
     0
  3
__ . . __ . . __ . . __ . . __ 
 72
    65
 73
     6
 40
22.0
 49
12.0
 74
     0
 49
-3.0
 74
     0
 49
0.5
 74
     0
 49
-3.0
 74
     0
 49
0.5
 74
     0
 49
-3.0
 74
     0
  0
LTYPE
  5
4C
330
5
100
AcDbSymbolTableRecord
100
AcDbLinetypeTableRecord
  2
ACAD_ISO13W100
 70
     0
  3
__ __ . . __ __ . . __ __ . . _
 72
    65
 73
     6
 40
33.5
 49
12.0
 74
     0
 49
-3.0
 74
     0
 49
12.0
 74
     0
 49
-3.0
 74
     0
 49
0.5
 74
     0
 49
-3.0
 74
     0
  0
LTYPE
  5
4D
330
5
100
AcDbSymbolTableRecord
100
AcDbLinetypeTableRecord
  2
ACAD_ISO14W100
 70
     0
  3
__ . . . __ . . . __ . . . __ .
 72
    65
 73
     6
 40
22.0
 49
12.0
 74
     0
 49
-3.0
 74
     0
 49
0.5
 74
     0
 49
-3.0
 74
     0
 49
0.5
 74
     0
 49
-3.0
 74
     0
  0
LTYPE
  5
4E
330
5
100
AcDbSymbolTableRecord
100
AcDbLinetypeTableRecord
  2
ACAD_ISO15W100
 70
     0
  3
__ __ . . . __ __ . . . __ __ .
 72
    65
 73
     6
 40
33.5
 49
12.0
 74
     0
 49
-3.0
 74
     0
 49
12.0
 74
     0
 49
-3.0
 74
     0
 49
0.5
 74
     0
 49
-3.0
 74
     0
  0
ENDTAB
  0
TABLE
  2
LAYER
  5
2
330
0
100
AcDbSymbolTable
 70
     2
  0
LAYER
  5
10
330
2
100
AcDbSymbolTableRecord
100
AcDbLayerTableRecord
  2
0
 70
     0
 62
     7
  6
CONTINUOUS
  0
LAYER
  5
4F
330
2
100
AcDbSymbolTableRecord
100
AcDbLayerTableRecord
  2
DEFAULT
 70
     0
 62
     7
  6
CONTINUOUS
  0
ENDTAB
  0
TABLE
  2
STYLE
  5
3
330
0
100
AcDbSymbolTable
 70
     5
  0
STYLE
  5
11
330
3
100
AcDbSymbolTableRecord
100
AcDbTextStyleTableRecord
  2
STANDARD
 70
     0
 40
0.0
 41
1.0
 50
0.0
 71
     0
 42
0.125
  3
txt
  4

  0
STYLE
  5
50
330
3
100
AcDbSymbolTableRecord
100
AcDbTextStyleTableRecord
  2
ITALIC
 70
     0
 40
0.0
 41
1.0
 50
0.0
 71
     0
 42
0.125
  3
ITALIC
  4

  0
STYLE
  5
51
330
3
100
AcDbSymbolTableRecord
100
AcDbTextStyleTableRecord
  2
SIMPLEX
 70
     0
 40
0.0
 41
1.0
 50
0.0
 71
     0
 42
0.125
  3
SIMPLEX
  4

  0
STYLE
  5
52
330
3
100
AcDbSymbolTableRecord
100
AcDbTextStyleTableRecord
  2
COMPLEX
 70
     0
 40
0.0
 41
1.0
 50
0.0
 71
     0
 42
0.125
  3
COMPLEX
  4

  0
STYLE
  5
77
330
3
100
AcDbSymbolTableRecord
100
AcDbTextStyleTableRecord
  2
ARIAL
 70
     0
 40
0.0
 41
1.0
 50
0.0
 71
     0
 42
0.125
  3
ARIAL.TTF
  4

1001
ACAD
1000
Arial
1071
        0
  0
ENDTAB
  0
TABLE
  2
VIEW
  5
6
330
0
100
AcDbSymbolTable
 70
     0
  0
ENDTAB
  0
TABLE
  2
UCS
  5
7
330
0
100
AcDbSymbolTable
 70
     0
  0
ENDTAB
  0
TABLE
  2
APPID
  5
9
330
0
100
AcDbSymbolTable
 70
     1
  0
APPID
  5
12
330
9
100
AcDbSymbolTableRecord
100
AcDbRegAppTableRecord
  2
ACAD
 70
     0
  0
ENDTAB
  0
TABLE
  2
DIMSTYLE
  5
A
330
0
100
AcDbSymbolTable
 70
     1
  0
DIMSTYLE
105
27
330
A
100
AcDbSymbolTableRecord
100
AcDbDimStyleTableRecord
  2
STANDARD
 70
     0
  3

  4

  5

  6

  7

 40
1.0
 41
0.18
 42
0.0625
 43
0.38
 44
0.18
 45
0.0
 46
0.0
 47
0.0
 48
0.0
140
0.18
141
0.09
142
0.0
143
25.4
144
1.0
145
0.0
146
1.0
147
0.09
 71
     0
 72
     0
 73
     1
 74
     1
 75
     0
 76
     0
 77
     0
 78
     0
170
     0
171
     2
172
     0
173
     0
174
     0
175
     0
176
     0
177
     0
178
     0
270
     2
271
     4
272
     4
273
     2
274
     2
340
11
275
     0
280
     0
281
     0
282
     0
283
     1
284
     0
285
     0
286
     0
287
     3
288
     0
  0
ENDTAB
  0
TABLE
  2
BLOCK_RECORD
  5
1
330
0
100
AcDbSymbolTable
 70
     3
  0
BLOCK_RECORD
  5
1F
102
{ACAD_XDICTIONARY
360
109
102
}
330
1
100
AcDbSymbolTableRecord
100
AcDbBlockTableRecord
  2
*MODEL_SPACE
  0
BLOCK_RECORD
  5
1B
102
{ACAD_XDICTIONARY
360
107
102
}
330
1
100
AcDbSymbolTableRecord
100
AcDbBlockTableRecord
  2
*PAPER_SPACE
  0
BLOCK_RECORD
  5
7D
330
1
100
AcDbSymbolTableRecord
100
AcDbBlockTableRecord
  2
SHORTARROW
  0
BLOCK_RECORD
  5
D6
330
1
100
AcDbSymbolTableRecord
100
AcDbBlockTableRecord
  2
LONGARROW
  0
ENDTAB
  0
ENDSEC
  0
SECTION
  2
BLOCKS
  0
BLOCK
  5
20
330
1F
100
AcDbEntity
  8
0
100
AcDbBlockBegin
  2
*MODEL_SPACE
 70
     0
 10
0.0
 20
0.0
 30
0.0
  3
*MODEL_SPACE
  1

  0
ENDBLK
  5
21
330
1F
100
AcDbEntity
  8
0
100
AcDbBlockEnd
  0
BLOCK
  5
1C
330
1B
100
AcDbEntity
 67
     1
  8
0
100
AcDbBlockBegin
  2
*PAPER_SPACE
 70
     0
 10
0.0
 20
0.0
 30
0.0
  3
*PAPER_SPACE
  1

  0
ENDBLK
  5
1D
330
1B
100
AcDbEntity
 67
     1
  8
0
100
AcDbBlockEnd
  0
BLOCK
  5
81
330
7D
100
AcDbEntity
  8
0
 62
     7
100
AcDbBlockBegin
  2
SHORTARROW
 70
     0
 10
0.0
 20
0.0
 30
0.0
  3
SHORTARROW
  1

  0
LINE
  5
7E
330
7D
100
AcDbEntity
  8
0
  6
CONTINUOUS
 62
     0
100
AcDbLine
 10
0.5
 20
0.5
 30
0.0
 11
0.0
 21
0.0
 31
0.0
  0
LINE
  5
7F
330
7D
100
AcDbEntity
  8
0
  6
CONTINUOUS
 62
     0
100
AcDbLine
 10
0.5
 20
-0.5
 30
0.0
 11
0.0
 21
0.0
 31
0.0
  0
LINE
  5
80
330
7D
100
AcDbEntity
  8
0
  6
CONTINUOUS
 62
     0
100
AcDbLine
 10
0.0
 20
0.0
 30
0.0
 11
0.5
 21
-0.5
 31
0.0
  0
ENDBLK
  5
82
330
7D
100
AcDbEntity
  8
0
 62
     7
100
AcDbBlockEnd
  0
BLOCK
  5
D9
330
D6
100
AcDbEntity
  8
0
 62
     7
100
AcDbBlockBegin
  2
LONGARROW
 70
     0
 10
0.0
 20
0.0
 30
0.0
  3
LONGARROW
  1

  0
LWPOLYLINE
  5
D7
102
{ACAD_REACTORS
330
D8
102
}
330
D6
100
AcDbEntity
  8
0
  6
CONTINUOUS
 62
     0
100
AcDbPolyline
 90
        3
 70
     1
 43
0.0
 10
0.0
 20
0.0
 10
2.0
 20
-0.25
 10
2.0
 20
0.25
  0
HATCH
  5
D8
330
D6
100
AcDbEntity
  8
0
  6
CONTINUOUS
 62
     0
100
AcDbHatch
 10
0.0
 20
0.0
 30
0.0
210
0.0
220
0.0
230
1.0
  2
SOLID
 70
     1
 71
     1
 91
        1
 92
        1
 93
        3
 72
     1
 10
0.0
 20
0.0
 11
2.0
 21
-0.25
 72
     1
 10
2.0
 20
-0.25
 11
2.0
 21
0.25
 72
     1
 10
2.0
 20
0.25
 11
0.0
 21
0.0
 97
        1
330
D7
 75
     0
 76
     1
 98
        1
 10
0.0
 20
0.0
  0
ENDBLK
  5
DA
330
D6
100
AcDbEntity
  8
0
 62
     7
100
AcDbBlockEnd
  0
ENDSEC
  0
SECTION
  2
ENTITIES
  0
LINE
  5
53
330
1F
100
AcDbEntity
  8
DEFAULT
100
AcDbLine
 10
0.0
 20
3.25
 30
0.0
 11
-0.0000000000000006
 21
0.0
 31
0.0
  0
LINE
  5
54
330
1F
100
AcDbEntity
  8
DEFAULT
100
AcDbLine
 10
-0.0000000000000006
 20
0.0
 30
0.0
 11
4.0
 21
-0.0000000000000009
 31
0.0
  0
LINE
  5
55
330
1F
100
AcDbEntity
  8
DEFAULT
100
AcDbLine
 10
4.0
 20
-0.0000000000000009
 30
0.0
 11
4.0
 21
3.249999999999998
 31
0.0
  0
LINE
  5
56
330
1F
100
AcDbEntity
  8
DEFAULT
100
AcDbLine
 10
4.0
 20
3.249999999999998
 30
0.0
 11
0.0
 21
3.25
 31
0.0
  0
LINE
  5
57
330
1F
100
AcDbEntity
  8
DEFAULT
100
AcDbLine
 10
3.5
 20
0.3499999999999996
 30
0.0
 11
3.5
 21
0.8999999999999994
 31
0.0
  0
ARC
  5
58
330
1F
100
AcDbEntity
  8
DEFAULT
100
AcDbCircle
 10
3.6
 20
0.8999999999999996
 30
0.0
 40
0.0999999999999999
100
AcDbArc
 50
90.0
 51
180.0000000000001
  0
ARC
  5
59
330
1F
100
AcDbEntity
  8
DEFAULT
100
AcDbCircle
 10
3.599999999999998
 20
0.8999999999999989
 30
0.0
 40
0.1000000000000005
100
AcDbArc
 50
0.0
 51
89.99999999999948
  0
LINE
  5
5A
330
1F
100
AcDbEntity
  8
DEFAULT
100
AcDbLine
 10
3.7
 20
0.8999999999999989
 30
0.0
 11
3.7
 21
0.3499999999999992
 31
0.0
  0
ARC
  5
5B
330
1F
100
AcDbEntity
  8
DEFAULT
100
AcDbCircle
 10
3.6
 20
0.3499999999999994
 30
0.0
 40
0.0999999999999999
100
AcDbArc
 50
270.0
 51
0.0000000000000799
  0
ARC
  5
5C
330
1F
100
AcDbEntity
  8
DEFAULT
100
AcDbCircle
 10
3.6
 20
0.3499999999999996
 30
0.0
 40
0.1000000000000003
100
AcDbArc
 50
180.0000000000001
 51
270.0
  0
LINE
  5
5D
330
1F
100
AcDbEntity
  8
DEFAULT
100
AcDbLine
 10
0.4999999999999994
 20
0.3500000000000001
 30
0.0
 11
0.4999999999999997
 21
0.9
 31
0.0
  0
ARC
  5
5E
330
1F
100
AcDbEntity
  8
DEFAULT
100
AcDbCircle
 10
0.3999999999999995
 20
0.8999999999999996
 30
0.0
 40
0.1000000000000001
100
AcDbArc
 50
0.0000000000001272
 51
90.0
  0
ARC
  5
5F
330
1F
100
AcDbEntity
  8
DEFAULT
100
AcDbCircle
 10
0.3999999999999993
 20
0.8999999999999998
 30
0.0
 40
0.0999999999999999
100
AcDbArc
 50
89.99999999999987
 51
179.9999999999999
  0
LINE
  5
60
330
1F
100
AcDbEntity
  8
DEFAULT
100
AcDbLine
 10
0.2999999999999994
 20
0.9
 30
0.0
 11
0.2999999999999993
 21
0.3500000000000001
 31
0.0
  0
ARC
  5
61
330
1F
100
AcDbEntity
  8
DEFAULT
100
AcDbCircle
 10
0.3999999999999994
 20
0.3499999999999999
 30
0.0
 40
0.1000000000000001
100
AcDbArc
 50
179.9999999999999
 51
270.0
  0
ARC
  5
62
330
1F
100
AcDbEntity
  8
DEFAULT
100
AcDbCircle
 10
0.3999999999999994
 20
0.3500000000000001
 30
0.0
 40
0.1000000000000003
100
AcDbArc
 50
270.0
 51
359.9999999999998
  0
LINE
  5
63
330
1F
100
AcDbEntity
  8
DEFAULT
100
AcDbLine
 10
0.5
 20
2.9
 30
0.0
 11
0.4999999999999999
 21
2.35
 31
0.0
  0
ARC
  5
64
330
1F
100
AcDbEntity
  8
DEFAULT
100
AcDbCircle
 10
0.3999999999999998
 20
2.35
 30
0.0
 40
0.1000000000000001
100
AcDbArc
 50
269.9999999999999
 51
359.9999999999997
  0
ARC
  5
65
330
1F
100
AcDbEntity
  8
DEFAULT
100
AcDbCircle
 10
0.4000000000000006
 20
2.35
 30
0.0
 40
0.1000000000000003
100
AcDbArc
 50
180.0
 51
269.9999999999996
  0
LINE
  5
66
330
1F
100
AcDbEntity
  8
DEFAULT
100
AcDbLine
 10
0.2999999999999997
 20
2.35
 30
0.0
 11
0.2999999999999998
 21
2.9
 31
0.0
  0
ARC
  5
67
330
1F
100
AcDbEntity
  8
DEFAULT
100
AcDbCircle
 10
0.3999999999999998
 20
2.9
 30
0.0
 40
0.1000000000000001
100
AcDbArc
 50
89.99999999999996
 51
179.9999999999996
  0
ARC
  5
68
330
1F
100
AcDbEntity
  8
DEFAULT
100
AcDbCircle
 10
0.3999999999999999
 20
2.9
 30
0.0
 40
0.1000000000000003
100
AcDbArc
 50
0.0000000000002544
 51
90.0
  0
LINE
  5
69
330
1F
100
AcDbEntity
  8
DEFAULT
100
AcDbLine
 10
3.5
 20
2.9
 30
0.0
 11
3.5
 21
2.349999999999999
 31
0.0
  0
ARC
  5
6A
330
1F
100
AcDbEntity
  8
DEFAULT
100
AcDbCircle
 10
3.6
 20
2.349999999999999
 30
0.0
 40
0.1000000000000001
100
AcDbArc
 50
179.9999999999996
 51
270.0
  0
ARC
  5
6B
330
1F
100
AcDbEntity
  8
DEFAULT
100
AcDbCircle
 10
3.6
 20
2.349999999999999
 30
0.0
 40
0.1000000000000001
100
AcDbArc
 50
270.0000000000001
 51
0.0
  0
LINE
  5
6C
330
1F
100
AcDbEntity
  8
DEFAULT
100
AcDbLine
 10
3.7
 20
2.349999999999999
 30
0.0
 11
3.7
 21
2.9
 31
0.0
  0
ARC
  5
6D
330
1F
100
AcDbEntity
  8
DEFAULT
100
AcDbCircle
 10
3.6
 20
2.899999999999998
 30
0.0
 40
0.1000000000000005
100
AcDbArc
 50
0.0000000000005089
 51
90.0
  0
ARC
  5
6E
330
1F
100
AcDbEntity
  8
DEFAULT
100
AcDbCircle
 10
3.6
 20
2.899999999999998
 30
0.0
 40
0.1000000000000003
100
AcDbArc
 50
90.0
 51
179.9999999999996
  0
CIRCLE
  5
6F
330
1F
100
AcDbEntity
  8
DEFAULT
100
AcDbCircle
 10
2.3125
 20
2.625
 30
0.0
 40
0.1
  0
CIRCLE
  5
70
330
1F
100
AcDbEntity
  8
DEFAULT
100
AcDbCircle
 10
1.6875
 20
2.625
 30
0.0
 40
0.1
  0
CIRCLE
  5
71
330
1F
100
AcDbEntity
  8
DEFAULT
100
AcDbCircle
 10
2.3125
 20
0.6249999999999996
 30
0.0
 40
0.1
  0
CIRCLE
  5
72
330
1F
100
AcDbEntity
  8
DEFAULT
100
AcDbCircle
 10
1.6875
 20
0.6249999999999996
 30
0.0
 40
0.1
  0
CIRCLE
  5
73
330
1F
100
AcDbEntity
  8
DEFAULT
100
AcDbCircle
 10
2.3125
 20
2.625
 30
0.0
 40
0.165
  0
CIRCLE
  5
74
330
1F
100
AcDbEntity
  8
DEFAULT
100
AcDbCircle
 10
1.6875
 20
2.625
 30
0.0
 40
0.165
  0
CIRCLE
  5
75
330
1F
100
AcDbEntity
  8
DEFAULT
100
AcDbCircle
 10
1.6875
 20
0.6249999999999996
 30
0.0
 40
0.165
  0
CIRCLE
  5
76
330
1F
100
AcDbEntity
  8
DEFAULT
100
AcDbCircle
 10
2.3125
 20
0.6249999999999996
 30
0.0
 40
0.165
  0
TEXT
  5
78
330
1F
100
AcDbEntity
  8
0
  6
CONTINUOUS
 62
     1
100
AcDbText
 10
1.732439452782273
 20
-0.2752884615384634
 30
0.0
 40
0.125
  1
4.0000"
  7
ARIAL
 72
     1
 11
2.0
 21
-0.2127884615384634
 31
0.0
100
AcDbText
 73
     2
  0
LINE
  5
79
330
1F
100
AcDbEntity
  8
0
  6
CONTINUOUS
 62
     1
100
AcDbLine
 10
-0.0000000000000006
 20
-0.125
 30
0.0
 11
-0.0000000000000006
 21
-0.4627884615384634
 31
0.0
  0
LINE
  5
7A
330
1F
100
AcDbEntity
  8
0
  6
CONTINUOUS
 62
     1
100
AcDbLine
 10
4.0
 20
-0.1250000000000009
 30
0.0
 11
4.0
 21
-0.4627884615384634
 31
0.0
  0
LINE
  5
7B
330
1F
100
AcDbEntity
  8
0
  6
CONTINUOUS
 62
     1
100
AcDbLine
 10
-0.0000000000000006
 20
-0.2127884615384634
 30
0.0
 11
1.59865916147828
 21
-0.2127884615384634
 31
0.0
  0
LINE
  5
7C
330
1F
100
AcDbEntity
  8
0
  6
CONTINUOUS
 62
     1
100
AcDbLine
 10
4.0
 20
-0.2127884615384634
 30
0.0
 11
2.401340838521718
 21
-0.2127884615384634
 31
0.0
  0
INSERT
  5
83
330
1F
100
AcDbEntity
  8
0
  6
CONTINUOUS
 62
     1
100
AcDbBlockReference
  2
SHORTARROW
 10
-0.0000000000000006
 20
-0.2127884615384634
 30
0.0
 41
0.125
 42
0.125
  0
INSERT
  5
84
330
1F
100
AcDbEntity
  8
0
  6
CONTINUOUS
 62
     1
100
AcDbBlockReference
  2
SHORTARROW
 10
4.0
 20
-0.2127884615384634
 30
0.0
 41
0.125
 42
0.125
 50
180.0
  0
TEXT
  5
85
330
1F
100
AcDbEntity
  8
DEFAULT
  6
CONTINUOUS
 62
     1
100
AcDbText
 10
-0.6136485131342818
 20
1.5625
 30
0.0
 40
0.125
  1
3.2500"
  7
ARIAL
 72
     1
 11
-0.3460879659165552
 21
1.625
 31
0.0
100
AcDbText
 73
     2
  0
LINE
  5
86
330
1F
100
AcDbEntity
  8
DEFAULT
  6
CONTINUOUS
 62
     1
100
AcDbLine
 10
-0.125
 20
3.25
 30
0.0
 11
-0.5960879659165569
 21
3.25
 31
0.0
  0
LINE
  5
87
330
1F
100
AcDbEntity
  8
DEFAULT
  6
CONTINUOUS
 62
     1
100
AcDbLine
 10
-0.1250000000000006
 20
0.0
 30
0.0
 11
-0.5960879659165535
 21
0.0
 31
0.0
  0
LINE
  5
88
330
1F
100
AcDbEntity
  8
DEFAULT
  6
CONTINUOUS
 62
     1
100
AcDbLine
 10
-0.3460879659165569
 20
3.25
 30
0.0
 11
-0.3460879659165558
 21
1.71875
 31
0.0
  0
LINE
  5
89
330
1F
100
AcDbEntity
  8
DEFAULT
  6
CONTINUOUS
 62
     1
100
AcDbLine
 10
-0.3460879659165535
 20
0.0
 30
0.0
 11
-0.3460879659165545
 21
1.53125
 31
0.0
  0
INSERT
  5
8A
330
1F
100
AcDbEntity
  8
DEFAULT
  6
CONTINUOUS
 62
     1
100
AcDbBlockReference
  2
SHORTARROW
 10
-0.3460879659165569
 20
3.25
 30
0.0
 41
0.125
 42
0.125
 50
270.0
  0
INSERT
  5
8B
330
1F
100
AcDbEntity
  8
DEFAULT
  6
CONTINUOUS
 62
     1
100
AcDbBlockReference
  2
SHORTARROW
 10
-0.3460879659165535
 20
0.0
 30
0.0
 41
0.125
 42
0.125
 50
90.00000000000005
  0
TEXT
  5
8C
330
1F
100
AcDbEntity
  8
0
  6
CONTINUOUS
 62
     1
100
AcDbText
 10
0.5782955428097748
 20
0.7740524475524471
 30
0.0
 40
0.125
  1
0.2000"
  7
ARIAL
 72
     1
 11
0.8458560900275013
 21
0.836552447552447
 31
0.0
100
AcDbText
 73
     2
  0
LINE
  5
8D
330
1F
100
AcDbEntity
  8
0
  6
CONTINUOUS
 62
     1
100
AcDbLine
 10
0.2999999999999994
 20
0.6564265734265732
 30
0.0
 11
0.1749999999999994
 21
0.6564265734265732
 31
0.0
  0
LINE
  5
8E
330
1F
100
AcDbEntity
  8
0
  6
CONTINUOUS
 62
     1
100
AcDbLine
 10
0.4999999999999995
 20
0.6564265734265732
 30
0.0
 11
0.6249999999999996
 21
0.6564265734265732
 31
0.0
  0
INSERT
  5
8F
330
1F
100
AcDbEntity
  8
0
  6
CONTINUOUS
 62
     1
100
AcDbBlockReference
  2
SHORTARROW
 10
0.2999999999999994
 20
0.6564265734265732
 30
0.0
 41
0.125
 42
0.125
 50
180.0
  0
INSERT
  5
90
330
1F
100
AcDbEntity
  8
0
  6
CONTINUOUS
 62
     1
100
AcDbBlockReference
  2
SHORTARROW
 10
0.4999999999999995
 20
0.6564265734265732
 30
0.0
 41
0.125
 42
0.125
  0
TEXT
  5
91
330
1F
100
AcDbEntity
  8
0
  6
CONTINUOUS
 62
     1
100
AcDbText
 10
0.564952885467117
 20
2.5625
 30
0.0
 40
0.125
  1
0.7500"
  7
ARIAL
 72
     1
 11
0.8325134326848434
 21
2.625
 31
0.0
100
AcDbText
 73
     2
  0
LINE
  5
92
330
1F
100
AcDbEntity
  8
0
  6
CONTINUOUS
 62
     1
100
AcDbLine
 10
0.525
 20
3.0
 30
0.0
 11
1.082513432684843
 21
3.0
 31
0.0
  0
LINE
  5
93
330
1F
100
AcDbEntity
  8
0
  6
CONTINUOUS
 62
     1
100
AcDbLine
 10
0.5249999999999999
 20
2.25
 30
0.0
 11
1.082513432684844
 21
2.25
 31
0.0
  0
LINE
  5
94
330
1F
100
AcDbEntity
  8
0
  6
CONTINUOUS
 62
     1
100
AcDbLine
 10
0.8325134326848431
 20
3.0
 30
0.0
 11
0.8325134326848433
 21
2.71875
 31
0.0
  0
LINE
  5
95
330
1F
100
AcDbEntity
  8
0
  6
CONTINUOUS
 62
     1
100
AcDbLine
 10
0.8325134326848438
 20
2.25
 30
0.0
 11
0.8325134326848436
 21
2.53125
 31
0.0
  0
INSERT
  5
96
330
1F
100
AcDbEntity
  8
0
  6
CONTINUOUS
 62
     1
100
AcDbBlockReference
  2
SHORTARROW
 10
0.8325134326848431
 20
3.0
 30
0.0
 41
0.125
 42
0.125
 50
270.0
  0
INSERT
  5
97
330
1F
100
AcDbEntity
  8
0
  6
CONTINUOUS
 62
     1
100
AcDbBlockReference
  2
SHORTARROW
 10
0.8325134326848438
 20
2.25
 30
0.0
 41
0.125
 42
0.125
 50
90.00000000000005
  0
TEXT
  5
98
330
1F
100
AcDbEntity
  8
0
  6
CONTINUOUS
 62
     1
100
AcDbText
 10
0.6587802913039923
 20
3.322596153846153
 30
0.0
 40
0.125
  1
0.4000"
  7
ARIAL
 72
     1
 11
0.9263408385217189
 21
3.385096153846153
 31
0.0
100
AcDbText
 73
     2
  0
LINE
  5
99
330
1F
100
AcDbEntity
  8
0
  6
CONTINUOUS
 62
     1
100
AcDbLine
 10
0.3999999999999999
 20
3.125
 30
0.0
 11
0.3999999999999999
 21
3.635096153846153
 31
0.0
  0
LINE
  5
9A
330
1F
100
AcDbEntity
  8
0
  6
CONTINUOUS
 62
     1
100
AcDbLine
 10
0.0
 20
3.385096153846153
 30
0.0
 11
-0.125
 21
3.385096153846153
 31
0.0
  0
LINE
  5
9B
330
1F
100
AcDbEntity
  8
0
  6
CONTINUOUS
 62
     1
100
AcDbLine
 10
0.3999999999999999
 20
3.385096153846153
 30
0.0
 11
0.525
 21
3.385096153846153
 31
0.0
  0
INSERT
  5
9C
330
1F
100
AcDbEntity
  8
0
  6
CONTINUOUS
 62
     1
100
AcDbBlockReference
  2
SHORTARROW
 10
0.0
 20
3.385096153846153
 30
0.0
 41
0.125
 42
0.125
 50
180.0
  0
INSERT
  5
9D
330
1F
100
AcDbEntity
  8
0
  6
CONTINUOUS
 62
     1
100
AcDbBlockReference
  2
SHORTARROW
 10
0.3999999999999999
 20
3.385096153846153
 30
0.0
 41
0.125
 42
0.125
  0
TEXT
  5
9E
330
1F
100
AcDbEntity
  8
0
  6
CONTINUOUS
 62
     1
100
AcDbText
 10
0.5761894527822734
 20
2.017980769230768
 30
0.0
 40
0.125
  1
1.6875"
  7
ARIAL
 72
     1
 11
0.84375
 21
2.080480769230768
 31
0.0
100
AcDbText
 73
     2
  0
LINE
  5
9F
330
1F
100
AcDbEntity
  8
0
  6
CONTINUOUS
 62
     1
100
AcDbLine
 10
1.6875
 20
2.5
 30
0.0
 11
1.6875
 21
1.830480769230767
 31
0.0
  0
LINE
  5
A0
330
1F
100
AcDbEntity
  8
0
  6
CONTINUOUS
 62
     1
100
AcDbLine
 10
0.0
 20
2.080480769230768
 30
0.0
 11
0.442409161478281
 21
2.080480769230768
 31
0.0
  0
LINE
  5
A1
330
1F
100
AcDbEntity
  8
0
  6
CONTINUOUS
 62
     1
100
AcDbLine
 10
1.6875
 20
2.080480769230768
 30
0.0
 11
1.245090838521718
 21
2.080480769230768
 31
0.0
  0
INSERT
  5
A2
330
1F
100
AcDbEntity
  8
0
  6
CONTINUOUS
 62
     1
100
AcDbBlockReference
  2
SHORTARROW
 10
0.0
 20
2.080480769230768
 30
0.0
 41
0.125
 42
0.125
  0
INSERT
  5
A3
330
1F
100
AcDbEntity
  8
0
  6
CONTINUOUS
 62
     1
100
AcDbBlockReference
  2
SHORTARROW
 10
1.6875
 20
2.080480769230768
 30
0.0
 41
0.125
 42
0.125
 50
180.0
  0
TEXT
  5
A4
330
1F
100
AcDbEntity
  8
0
  6
CONTINUOUS
 62
     1
100
AcDbText
 10
0.8886894527822732
 20
1.620480769230767
 30
0.0
 40
0.125
  1
2.3125"
  7
ARIAL
 72
     1
 11
1.15625
 21
1.682980769230767
 31
0.0
100
AcDbText
 73
     2
  0
LINE
  5
A5
330
1F
100
AcDbEntity
  8
0
  6
CONTINUOUS
 62
     1
100
AcDbLine
 10
2.3125
 20
2.5
 30
0.0
 11
2.3125
 21
1.432980769230767
 31
0.0
  0
LINE
  5
A6
330
1F
100
AcDbEntity
  8
0
  6
CONTINUOUS
 62
     1
100
AcDbLine
 10
0.0
 20
1.682980769230767
 30
0.0
 11
0.7549091614782811
 21
1.682980769230767
 31
0.0
  0
LINE
  5
A7
330
1F
100
AcDbEntity
  8
0
  6
CONTINUOUS
 62
     1
100
AcDbLine
 10
2.3125
 20
1.682980769230767
 30
0.0
 11
1.557590838521718
 21
1.682980769230767
 31
0.0
  0
INSERT
  5
A8
330
1F
100
AcDbEntity
  8
0
  6
CONTINUOUS
 62
     1
100
AcDbBlockReference
  2
SHORTARROW
 10
0.0
 20
1.682980769230767
 30
0.0
 41
0.125
 42
0.125
  0
INSERT
  5
A9
330
1F
100
AcDbEntity
  8
0
  6
CONTINUOUS
 62
     1
100
AcDbBlockReference
  2
SHORTARROW
 10
2.3125
 20
1.682980769230767
 30
0.0
 41
0.125
 42
0.125
 50
180.0
  0
TEXT
  5
AA
330
1F
100
AcDbEntity
  8
0
  6
CONTINUOUS
 62
     1
100
AcDbText
 10
1.532439452782273
 20
3.689519230769227
 30
0.0
 40
0.125
  1
3.6000"
  7
ARIAL
 72
     1
 11
1.799999999999999
 21
3.752019230769227
 31
0.0
100
AcDbText
 73
     2
  0
LINE
  5
AB
330
1F
100
AcDbEntity
  8
0
  6
CONTINUOUS
 62
     1
100
AcDbLine
 10
0.0
 20
3.375
 30
0.0
 11
0.0
 21
4.002019230769228
 31
0.0
  0
LINE
  5
AC
330
1F
100
AcDbEntity
  8
0
  6
CONTINUOUS
 62
     1
100
AcDbLine
 10
3.6
 20
3.124999999999999
 30
0.0
 11
3.6
 21
4.002019230769228
 31
0.0
  0
LINE
  5
AD
330
1F
100
AcDbEntity
  8
0
  6
CONTINUOUS
 62
     1
100
AcDbLine
 10
0.0
 20
3.752019230769227
 30
0.0
 11
1.398659161478281
 21
3.752019230769227
 31
0.0
  0
LINE
  5
AE
330
1F
100
AcDbEntity
  8
0
  6
CONTINUOUS
 62
     1
100
AcDbLine
 10
3.6
 20
3.752019230769227
 30
0.0
 11
2.201340838521718
 21
3.752019230769227
 31
0.0
  0
INSERT
  5
AF
330
1F
100
AcDbEntity
  8
0
  6
CONTINUOUS
 62
     1
100
AcDbBlockReference
  2
SHORTARROW
 10
0.0
 20
3.752019230769227
 30
0.0
 41
0.125
 42
0.125
  0
INSERT
  5
B0
330
1F
100
AcDbEntity
  8
0
  6
CONTINUOUS
 62
     1
100
AcDbBlockReference
  2
SHORTARROW
 10
3.6
 20
3.752019230769227
 30
0.0
 41
0.125
 42
0.125
 50
180.0
  0
TEXT
  5
B1
330
1F
100
AcDbEntity
  8
0
  6
CONTINUOUS
 62
     1
100
AcDbText
 10
4.044236102250335
 20
0.4062499999999993
 30
0.0
 40
0.125
  1
0.2500"
  7
ARIAL
 72
     1
 11
4.311796649468062
 21
0.4687499999999993
 31
0.0
100
AcDbText
 73
     2
  0
LINE
  5
B2
330
1F
100
AcDbEntity
  8
0
  6
CONTINUOUS
 62
     1
100
AcDbLine
 10
3.725
 20
0.2499999999999993
 30
0.0
 11
4.561796649468062
 21
0.2499999999999993
 31
0.0
  0
LINE
  5
B3
330
1F
100
AcDbEntity
  8
0
  6
CONTINUOUS
 62
     1
100
AcDbLine
 10
4.311796649468062
 20
-0.0000000000000009
 30
0.0
 11
4.311796649468062
 21
-0.1250000000000009
 31
0.0
  0
LINE
  5
B4
330
1F
100
AcDbEntity
  8
0
  6
CONTINUOUS
 62
     1
100
AcDbLine
 10
4.311796649468062
 20
0.2499999999999993
 30
0.0
 11
4.311796649468062
 21
0.3749999999999993
 31
0.0
  0
INSERT
  5
B5
330
1F
100
AcDbEntity
  8
0
  6
CONTINUOUS
 62
     1
100
AcDbBlockReference
  2
SHORTARROW
 10
4.311796649468062
 20
-0.0000000000000009
 30
0.0
 41
0.125
 42
0.125
 50
270.0
  0
INSERT
  5
B6
330
1F
100
AcDbEntity
  8
0
  6
CONTINUOUS
 62
     1
100
AcDbBlockReference
  2
SHORTARROW
 10
4.311796649468062
 20
0.2499999999999993
 30
0.0
 41
0.125
 42
0.125
 50
90.00000000000005
  0
TEXT
  5
B7
330
1F
100
AcDbEntity
  8
0
  6
CONTINUOUS
 62
     1
100
AcDbText
 10
2.464428409942644
 20
0.2499999999999993
 30
0.0
 40
0.125
  1
0.6250"
  7
ARIAL
 72
     1
 11
2.73198895716037
 21
0.3124999999999993
 31
0.0
100
AcDbText
 73
     2
  0
LINE
  5
B8
330
1F
100
AcDbEntity
  8
0
  6
CONTINUOUS
 62
     1
100
AcDbLine
 10
2.4375
 20
0.6249999999999996
 30
0.0
 11
2.98198895716037
 21
0.6249999999999996
 31
0.0
  0
LINE
  5
B9
330
1F
100
AcDbEntity
  8
0
  6
CONTINUOUS
 62
     1
100
AcDbLine
 10
2.73198895716037
 20
-0.0000000000000009
 30
0.0
 11
2.73198895716037
 21
0.2187500000000002
 31
0.0
  0
LINE
  5
BA
330
1F
100
AcDbEntity
  8
0
  6
CONTINUOUS
 62
     1
100
AcDbLine
 10
2.73198895716037
 20
0.6249999999999996
 30
0.0
 11
2.73198895716037
 21
0.4062499999999985
 31
0.0
  0
INSERT
  5
BB
330
1F
100
AcDbEntity
  8
0
  6
CONTINUOUS
 62
     1
100
AcDbBlockReference
  2
SHORTARROW
 10
2.73198895716037
 20
-0.0000000000000009
 30
0.0
 41
0.125
 42
0.125
 50
90.00000000000005
  0
INSERT
  5
BC
330
1F
100
AcDbEntity
  8
0
  6
CONTINUOUS
 62
     1
100
AcDbBlockReference
  2
SHORTARROW
 10
2.73198895716037
 20
0.6249999999999996
 30
0.0
 41
0.125
 42
0.125
 50
270.0
  0
TEXT
  5
BD
330
1F
100
AcDbEntity
  8
0
  6
CONTINUOUS
 62
     1
100
AcDbText
 10
4.665966871481105
 20
0.4374999999999993
 30
0.0
 40
0.125
  1
1.0000"
  7
ARIAL
 72
     1
 11
4.933527418698831
 21
0.4999999999999993
 31
0.0
100
AcDbText
 73
     2
  0
LINE
  5
BE
330
1F
100
AcDbEntity
  8
0
  6
CONTINUOUS
 62
     1
100
AcDbLine
 10
3.724999999999999
 20
0.9999999999999994
 30
0.0
 11
5.183527418698831
 21
0.9999999999999994
 31
0.0
  0
LINE
  5
BF
330
1F
100
AcDbEntity
  8
0
  6
CONTINUOUS
 62
     1
100
AcDbLine
 10
4.933527418698832
 20
-0.0000000000000009
 30
0.0
 11
4.933527418698832
 21
0.4062499999999996
 31
0.0
  0
LINE
  5
C0
330
1F
100
AcDbEntity
  8
0
  6
CONTINUOUS
 62
     1
100
AcDbLine
 10
4.933527418698831
 20
0.9999999999999994
 30
0.0
 11
4.933527418698831
 21
0.5937499999999991
 31
0.0
  0
INSERT
  5
C1
330
1F
100
AcDbEntity
  8
0
  6
CONTINUOUS
 62
     1
100
AcDbBlockReference
  2
SHORTARROW
 10
4.933527418698832
 20
-0.0000000000000009
 30
0.0
 41
0.125
 42
0.125
 50
90.00000000000005
  0
INSERT
  5
C2
330
1F
100
AcDbEntity
  8
0
  6
CONTINUOUS
 62
     1
100
AcDbBlockReference
  2
SHORTARROW
 10
4.933527418698831
 20
0.9999999999999994
 30
0.0
 41
0.125
 42
0.125
 50
270.0
  0
TEXT
  5
C3
330
1F
100
AcDbEntity
  8
0
  6
CONTINUOUS
 62
     1
100
AcDbText
 10
5.226543794558029
 20
1.062499999999999
 30
0.0
 40
0.125
  1
2.2500"
  7
ARIAL
 72
     1
 11
5.494104341775756
 21
1.124999999999999
 31
0.0
100
AcDbText
 73
     2
  0
LINE
  5
C4
330
1F
100
AcDbEntity
  8
0
  6
CONTINUOUS
 62
     1
100
AcDbLine
 10
3.725
 20
2.249999999999999
 30
0.0
 11
5.744104341775754
 21
2.249999999999999
 31
0.0
  0
LINE
  5
C5
330
1F
100
AcDbEntity
  8
0
  6
CONTINUOUS
 62
     1
100
AcDbLine
 10
5.494104341775757
 20
-0.0000000000000009
 30
0.0
 11
5.494104341775756
 21
1.031249999999999
 31
0.0
  0
LINE
  5
C6
330
1F
100
AcDbEntity
  8
0
  6
CONTINUOUS
 62
     1
100
AcDbLine
 10
5.494104341775754
 20
2.249999999999999
 30
0.0
 11
5.494104341775755
 21
1.218749999999998
 31
0.0
  0
INSERT
  5
C7
330
1F
100
AcDbEntity
  8
0
  6
CONTINUOUS
 62
     1
100
AcDbBlockReference
  2
SHORTARROW
 10
5.494104341775757
 20
-0.0000000000000009
 30
0.0
 41
0.125
 42
0.125
 50
90.00000000000005
  0
INSERT
  5
C8
330
1F
100
AcDbEntity
  8
0
  6
CONTINUOUS
 62
     1
100
AcDbBlockReference
  2
SHORTARROW
 10
5.494104341775754
 20
2.249999999999999
 30
0.0
 41
0.125
 42
0.125
 50
270.0
  0
TEXT
  5
C9
330
1F
100
AcDbEntity
  8
0
  6
CONTINUOUS
 62
     1
100
AcDbText
 10
2.810966871481106
 20
1.249999999999999
 30
0.0
 40
0.125
  1
2.6250"
  7
ARIAL
 72
     1
 11
3.078527418698832
 21
1.312499999999999
 31
0.0
100
AcDbText
 73
     2
  0
LINE
  5
CA
330
1F
100
AcDbEntity
  8
0
  6
CONTINUOUS
 62
     1
100
AcDbLine
 10
2.4375
 20
2.625
 30
0.0
 11
3.328527418698831
 21
2.625
 31
0.0
  0
LINE
  5
CB
330
1F
100
AcDbEntity
  8
0
  6
CONTINUOUS
 62
     1
100
AcDbLine
 10
3.078527418698834
 20
-0.0000000000000009
 30
0.0
 11
3.078527418698832
 21
1.21875
 31
0.0
  0
LINE
  5
CC
330
1F
100
AcDbEntity
  8
0
  6
CONTINUOUS
 62
     1
100
AcDbLine
 10
3.078527418698831
 20
2.625
 30
0.0
 11
3.078527418698832
 21
1.406249999999998
 31
0.0
  0
INSERT
  5
CD
330
1F
100
AcDbEntity
  8
0
  6
CONTINUOUS
 62
     1
100
AcDbBlockReference
  2
SHORTARROW
 10
3.078527418698834
 20
-0.0000000000000009
 30
0.0
 41
0.125
 42
0.125
 50
90.00000000000005
  0
INSERT
  5
CE
330
1F
100
AcDbEntity
  8
0
  6
CONTINUOUS
 62
     1
100
AcDbBlockReference
  2
SHORTARROW
 10
3.078527418698831
 20
2.625
 30
0.0
 41
0.125
 42
0.125
 50
270.0
  0
TEXT
  5
CF
330
1F
100
AcDbEntity
  8
0
  6
CONTINUOUS
 62
     1
100
AcDbText
 10
5.603659179173414
 20
1.437499999999999
 30
0.0
 40
0.125
  1
3.0000"
  7
ARIAL
 72
     1
 11
5.87121972639114
 21
1.499999999999999
 31
0.0
100
AcDbText
 73
     2
  0
LINE
  5
D0
330
1F
100
AcDbEntity
  8
0
  6
CONTINUOUS
 62
     1
100
AcDbLine
 10
4.125
 20
-0.0000000000000009
 30
0.0
 11
6.121219726391142
 21
-0.0000000000000009
 31
0.0
  0
LINE
  5
D1
330
1F
100
AcDbEntity
  8
0
  6
CONTINUOUS
 62
     1
100
AcDbLine
 10
3.725
 20
2.999999999999999
 30
0.0
 11
6.121219726391139
 21
2.999999999999999
 31
0.0
  0
LINE
  5
D2
330
1F
100
AcDbEntity
  8
0
  6
CONTINUOUS
 62
     1
100
AcDbLine
 10
5.871219726391142
 20
-0.0000000000000009
 30
0.0
 11
5.87121972639114
 21
1.406249999999999
 31
0.0
  0
LINE
  5
D3
330
1F
100
AcDbEntity
  8
0
  6
CONTINUOUS
 62
     1
100
AcDbLine
 10
5.871219726391139
 20
2.999999999999999
 30
0.0
 11
5.87121972639114
 21
1.593749999999998
 31
0.0
  0
INSERT
  5
D4
330
1F
100
AcDbEntity
  8
0
  6
CONTINUOUS
 62
     1
100
AcDbBlockReference
  2
SHORTARROW
 10
5.871219726391142
 20
-0.0000000000000009
 30
0.0
 41
0.125
 42
0.125
 50
90.00000000000005
  0
INSERT
  5
D5
330
1F
100
AcDbEntity
  8
0
  6
CONTINUOUS
 62
     1
100
AcDbBlockReference
  2
SHORTARROW
 10
5.871219726391139
 20
2.999999999999999
 30
0.0
 41
0.125
 42
0.125
 50
270.0
  0
INSERT
  5
DB
330
1F
100
AcDbEntity
  8
0
 62
     1
100
AcDbBlockReference
  2
LONGARROW
 10
1.6875
 20
2.625
 30
0.0
 41
0.125
 42
0.125
 50
80.53767779197439
  0
LWPOLYLINE
  5
DC
330
1F
100
AcDbEntity
  8
0
 62
     1
100
AcDbPolyline
 90
        4
 70
     0
 43
0.0
 10
1.6875
 20
2.625
 10
1.75
 20
3.0
 10
2.0
 20
3.0
 10
2.125
 20
3.0
  0
TEXT
  5
DD
330
1F
100
AcDbEntity
  8
0
 62
     1
100
AcDbText
 10
2.25
 20
2.9375
 30
0.0
 40
0.125
  1
#10 drill
  7
ARIAL
 11
2.25
 21
3.0
 31
0.0
100
AcDbText
 73
     2
  0
INSERT
  5
DE
330
1F
100
AcDbEntity
  8
0
 62
     1
100
AcDbBlockReference
  2
LONGARROW
 10
1.6875
 20
0.7899999999999996
 30
0.0
 41
0.125
 42
0.125
 50
73.42599224309104
  0
LWPOLYLINE
  5
DF
330
1F
100
AcDbEntity
  8
0
 62
     1
100
AcDbPolyline
 90
        4
 70
     0
 43
0.0
 10
1.6875
 20
0.7899999999999996
 10
1.75
 20
1.0
 10
2.0
 20
1.0
 10
2.125
 20
1.0
  0
TEXT
  5
E0
330
1F
100
AcDbEntity
  8
0
 62
     1
100
AcDbText
 10
2.25
 20
0.9375
 30
0.0
 40
0.125
  1
note*
  7
ARIAL
 11
2.25
 21
1.0
 31
0.0
100
AcDbText
 73
     2
  0
TEXT
  5
E1
330
1F
100
AcDbEntity
  8
0
 62
     7
100
AcDbText
 10
0.0000000000000001
 20
4.25
 30
0.0
 40
0.125
  1
*note counterbore holes .2" deep for #10 SHCS
  7
ARIAL
100
AcDbText
  0
TEXT
  5
E2
330
1F
100
AcDbEntity
  8
0
 62
     7
100
AcDbText
 10
0.0000000000000001
 20
5.0
 30
0.0
 40
0.125
  1
material: 3/8"+ thick aluminum 
  7
ARIAL
100
AcDbText
  0
TEXT
  5
E3
330
1F
100
AcDbEntity
  8
0
 62
     7
100
AcDbText
 10
0.0000000000000001
 20
4.5
 30
0.0
 40
0.125
  1
4 holes drilled through for #10 screw clearance
  7
ARIAL
100
AcDbText
  0
TEXT
  5
E4
330
1F
100
AcDbEntity
  8
0
 62
     7
100
AcDbText
 10
0.0000000000000001
 20
5.25
 30
0.0
 40
0.2
  1
Adapter for Sherline Rotary Table to Taig Mill.
  7
ARIAL
100
AcDbText
  0
TEXT
  5
E5
330
1F
100
AcDbEntity
  8
0
 62
     7
100
AcDbText
 10
0.0000000000000001
 20
4.75
 30
0.0
 40
0.125
  1
mill slots through for mounting to Taig, slots may be longer than shown.
  7
ARIAL
100
AcDbText
  0
ENDSEC
  0
SECTION
  2
OBJECTS
  0
DICTIONARY
  5
C
330
0
100
AcDbDictionary
  3
ACAD_GROUP
350
D
  3
ACAD_PLOTSTYLENAME
350
E
  3
ACAD_MLINESTYLE
350
17
  3
ACAD_PLOTSETTINGS
350
19
  3
ACAD_LAYOUT
350
1A
  3
ACDBHEADERROUNDTRIPXREC
350
E6
  0
DICTIONARY
  5
109
330
1F
100
AcDbDictionary
280
     1
  3
ACAD_LAYOUTSELFREF
360
10A
  0
DICTIONARY
  5
107
330
1B
100
AcDbDictionary
280
     1
  3
ACAD_LAYOUTSELFREF
360
108
  0
DICTIONARY
  5
D
102
{ACAD_REACTORS
330
C
102
}
330
C
100
AcDbDictionary
  0
ACDBDICTIONARYWDFLT
  5
E
102
{ACAD_REACTORS
330
C
102
}
330
C
100
AcDbDictionary
281
     1
  3
Normal
350
F
100
AcDbDictionaryWithDefault
340
F
  0
DICTIONARY
  5
17
102
{ACAD_REACTORS
330
C
102
}
330
C
100
AcDbDictionary
  3
STANDARD
350
18
  0
DICTIONARY
  5
19
102
{ACAD_REACTORS
330
C
102
}
330
C
100
AcDbDictionary
  0
DICTIONARY
  5
1A
102
{ACAD_REACTORS
330
C
102
}
330
C
100
AcDbDictionary
  0
DICTIONARY
  5
E6
102
{ACAD_REACTORS
330
C
102
}
330
C
100
AcDbDictionary
  3
TSTACKALIGN
350
E7
  3
TSTACKSIZE
350
E8
  3
HYPERLINKBASE
350
E9
  3
STYLESHEET
350
EA
  3
LAYOUTDICT
350
EB
  3
PLOTSETDICT
350
EC
  3
PLOTSTYLNAMDICT
350
ED
  3
LWETCUNION
350
EE
  3
INSUNITS
350
EF
  3
CEPSNTYPE
350
F0
  3
FINGERPRINTGUID
350
F1
  3
VERSIONGUID
350
F2
  3
PSVPSCALE
350
F3
  3
DIMSTYLEDATA
350
F4
  3
PUCSORTHOREF
350
F5
  3
PUCSORTHOVIEW
350
F6
  3
PUCSBASE
350
F7
  3
PUCSORGTOP
350
F8
  3
PUCSORGBOTTOM
350
F9
  3
PUCSORGLEFT
350
FA
  3
PUCSORGRIGHT
350
FB
  3
PUCSORGFRONT
350
FC
  3
PUCSORGBACK
350
FD
  3
UCSORTHOREF
350
FE
  3
UCSORTHOVIEW
350
FF
  3
UCSBASE
350
100
  3
UCSORGTOP
350
101
  3
UCSORGBOTTOM
350
102
  3
UCSORGLEFT
350
103
  3
UCSORGRIGHT
350
104
  3
UCSORGFRONT
350
105
  3
UCSORGBACK
350
106
  0
XRECORD
  5
10A
102
{ACAD_REACTORS
330
109
102
}
330
109
100
AcDbXrecord
340
1F
  0
XRECORD
  5
108
102
{ACAD_REACTORS
330
107
102
}
330
107
100
AcDbXrecord
340
1B
  0
ACDBPLACEHOLDER
  5
F
102
{ACAD_REACTORS
330
E
102
}
330
E
100
AcDbPlaceHolder
280
     0
  0
MLINESTYLE
  5
18
102
{ACAD_REACTORS
330
17
102
}
330
17
100
AcDbMlineStyle
  2
STANDARD
 70
     0
  3

 62
   256
 51
90.0
 52
90.0
 71
     2
 49
0.5
 62
   256
  6
BYLAYER
 49
-0.5
 62
   256
  6
BYLAYER
  0
XRECORD
  5
E7
102
{ACAD_REACTORS
330
E6
102
}
330
E6
100
AcDbXrecord
 90
        1
  0
XRECORD
  5
E8
102
{ACAD_REACTORS
330
E6
102
}
330
E6
100
AcDbXrecord
 90
       70
  0
XRECORD
  5
E9
102
{ACAD_REACTORS
330
E6
102
}
330
E6
100
AcDbXrecord
  1

  0
XRECORD
  5
EA
102
{ACAD_REACTORS
330
E6
102
}
330
E6
100
AcDbXrecord
  1

  0
XRECORD
  5
EB
102
{ACAD_REACTORS
330
E6
102
}
330
E6
100
AcDbXrecord
340
1A
  0
XRECORD
  5
EC
102
{ACAD_REACTORS
330
E6
102
}
330
E6
100
AcDbXrecord
340
19
  0
XRECORD
  5
ED
102
{ACAD_REACTORS
330
E6
102
}
330
E6
100
AcDbXrecord
340
E
  0
XRECORD
  5
EE
102
{ACAD_REACTORS
330
E6
102
}
330
E6
100
AcDbXrecord
 90
    10781
  0
XRECORD
  5
EF
102
{ACAD_REACTORS
330
E6
102
}
330
E6
100
AcDbXrecord
 90
        0
  0
XRECORD
  5
F0
102
{ACAD_REACTORS
330
E6
102
}
330
E6
100
AcDbXrecord
 90
        0
  0
XRECORD
  5
F1
102
{ACAD_REACTORS
330
E6
102
}
330
E6
100
AcDbXrecord
  1
{B54A95B2-963D-4F4E-9254-D125318BA7A9}
  0
XRECORD
  5
F2
102
{ACAD_REACTORS
330
E6
102
}
330
E6
100
AcDbXrecord
  1
{7B7AC6B3-B3C0-41E1-BC48-F10D14834F10}
  0
XRECORD
  5
F3
102
{ACAD_REACTORS
330
E6
102
}
330
E6
100
AcDbXrecord
 40
0.0
  0
XRECORD
  5
F4
102
{ACAD_REACTORS
330
E6
102
}
330
E6
100
AcDbXrecord
1000
DSTYLE
1002
{
1070
   277
 70
     4
1002
}
  0
XRECORD
  5
F5
102
{ACAD_REACTORS
330
E6
102
}
330
E6
100
AcDbXrecord
340
0
  0
XRECORD
  5
F6
102
{ACAD_REACTORS
330
E6
102
}
330
E6
100
AcDbXrecord
 70
     0
  0
XRECORD
  5
F7
102
{ACAD_REACTORS
330
E6
102
}
330
E6
100
AcDbXrecord
340
0
  0
XRECORD
  5
F8
102
{ACAD_REACTORS
330
E6
102
}
330
E6
100
AcDbXrecord
 10
0.0
 20
0.0
 30
0.0
  0
XRECORD
  5
F9
102
{ACAD_REACTORS
330
E6
102
}
330
E6
100
AcDbXrecord
 10
0.0
 20
0.0
 30
0.0
  0
XRECORD
  5
FA
102
{ACAD_REACTORS
330
E6
102
}
330
E6
100
AcDbXrecord
 10
0.0
 20
0.0
 30
0.0
  0
XRECORD
  5
FB
102
{ACAD_REACTORS
330
E6
102
}
330
E6
100
AcDbXrecord
 10
0.0
 20
0.0
 30
0.0
  0
XRECORD
  5
FC
102
{ACAD_REACTORS
330
E6
102
}
330
E6
100
AcDbXrecord
 10
0.0
 20
0.0
 30
0.0
  0
XRECORD
  5
FD
102
{ACAD_REACTORS
330
E6
102
}
330
E6
100
AcDbXrecord
 10
0.0
 20
0.0
 30
0.0
  0
XRECORD
  5
FE
102
{ACAD_REACTORS
330
E6
102
}
330
E6
100
AcDbXrecord
340
0
  0
XRECORD
  5
FF
102
{ACAD_REACTORS
330
E6
102
}
330
E6
100
AcDbXrecord
 70
     0
  0
XRECORD
  5
100
102
{ACAD_REACTORS
330
E6
102
}
330
E6
100
AcDbXrecord
340
0
  0
XRECORD
  5
101
102
{ACAD_REACTORS
330
E6
102
}
330
E6
100
AcDbXrecord
 10
0.0
 20
0.0
 30
0.0
  0
XRECORD
  5
102
102
{ACAD_REACTORS
330
E6
102
}
330
E6
100
AcDbXrecord
 10
0.0
 20
0.0
 30
0.0
  0
XRECORD
  5
103
102
{ACAD_REACTORS
330
E6
102
}
330
E6
100
AcDbXrecord
 10
0.0
 20
0.0
 30
0.0
  0
XRECORD
  5
104
102
{ACAD_REACTORS
330
E6
102
}
330
E6
100
AcDbXrecord
 10
0.0
 20
0.0
 30
0.0
  0
XRECORD
  5
105
102
{ACAD_REACTORS
330
E6
102
}
330
E6
100
AcDbXrecord
 10
0.0
 20
0.0
 30
0.0
  0
XRECORD
  5
106
102
{ACAD_REACTORS
330
E6
102
}
330
E6
100
AcDbXrecord
 10
0.0
 20
0.0
 30
0.0
  0
ENDSEC
  0
EOF
